the music of Dax Riggs and more
 
HomeFAQRegisterLog in

Share | 
 

 Tower of Song (alt tabs)

Go down 
AuthorMessage
GKP

GKP

Gender : Male
Location : Georgia


PostSubject: Tower of Song (alt tabs)   Mon Nov 04, 2013 7:11 pm

------------------------------------------------------------------------------------------------------------------------
------------------------------------------------------------------------------------------------------------------------
----------6-------------------------------------------------------------------------------------------------------------
----------6--------( Strum rhythmically ----------------------------------------------------------------------------
----------4-------------------------------------------------------------------------------------------------------------
------------------------------------------------------------------------------------------------------------------------
Well my friends are gone and my hair is grey and i, ache in the places that i used to play

------------------------------------------------------------------------------------------------------------------------
------------------------------------------------------------------------------------------------------------------------
------------------------------------------------6--------------------------------------------------------------------6-
----------4-------------------------------------6---------------6--------------------------4------------------------6-
----------4-------------------------------------4---------------6--------------------------4------------------------4-
----------2-----------------------------------------------------4--------------------------2---------------------------

But I'm crazy for love but I'm not comin' on I'm just payin' my rent every day in the tower of song


The rest is literally just variations of those three power chords.
Back to top Go down
 
Tower of Song (alt tabs)
Back to top 
Page 1 of 1
 Similar topics
-
» [Code]Things related to Organic Tabs
» Music Profile Song
» Help Moving Social Media Tabs to The Left Side
» How do I add a profile song?
» Casey Anthony defense team files expert witness list

Permissions in this forum:You cannot reply to topics in this forum
A Board with no Name :: Music :: Ghost Movements-
Jump to: