the music of Dax Riggs and more
 
HomeFAQRegisterLog in

Share | 
 

 Strangers to reason (soul of a beer can)

Go down 
AuthorMessage
GKP

avatar

Gender : Male
Location : Georgia


PostSubject: Strangers to reason (soul of a beer can)   Mon Nov 04, 2013 7:18 pm

------------------------------------------------------------------------------------------------------------------------
------------------------------------------------------------------------------------------------------------------------
-----------6------------------------------------------------------------------------------------------------------------
--------6-----------6------------8p0----------2-----------------------------------------------------------------------
-----5-----------6------0-----8----0-------2----2---------------------------------------------------------------------
--------------5-------------6-------0----1-----------------------------------------------------------------------------

then strum those power chords for the verses and chorus.
Back to top Go down
DEADacidOBLIVION

avatar

Gender : Female
Location : whereverFOREVERis


PostSubject: Re: Strangers to reason (soul of a beer can)   Thu May 11, 2017 8:07 pm

THANK YOU SO MUCH! I was tryin to figure it out myself and couldn't quite get it.
Back to top Go down
DEADacidOBLIVION

avatar

Gender : Female
Location : whereverFOREVERis


PostSubject: Re: Strangers to reason (soul of a beer can)   Sun May 21, 2017 4:17 pm

wait.... these don't sounds riiiiight.... YOU SABATOUGED me!!!! *runs away*
Back to top Go down
doctorthompson

avatar

Gender : Male
Location : Edmonton, AB, Canada


PostSubject: Re: Strangers to reason (soul of a beer can)   Sun Jul 02, 2017 4:59 pm

DEADacidOBLIVION wrote:
wait.... these don't sounds riiiiight.... YOU SABATOUGED me!!!! *runs away*

This should work for ya…

Code:

Song: Soul Of A Beer Can
Artist: Dax Riggs

Standard Tuning
Tempo: 70bpm

E |----------------------------|----------------------------|
B |----------------------------|----------------------------|
G |--------0-------------------|----------------------------|
D |-----9--------------9-------|--------0-----------5-------|
A |--7--------------9-----0----|-----10----------5----------|
E |-----------7----------------|--8--------3-----------3----|


----------------------------|----------------------------||
----------------------------|----------------------------||
--------0-------------------|----------------------------||
-----9--------------9-------|--------0-----------5-------||
--7--------------9-----0----|-----10----------5----------||
--0--------7----------------|--8--------3-----------3----||


The image below might be a little easier to read if you're used to the style of tab+notation used in guitar magazines.

Back to top Go down
Doomchild
the janitor
avatar

Gender : Male
Location : Cologne, Germany


PostSubject: Re: Strangers to reason (soul of a beer can)   Sun Jul 02, 2017 9:08 pm

Thank goodness! The doctor is in. :D
Back to top Go down
Guardic




PostSubject: Re: Strangers to reason (soul of a beer can)   Wed Aug 29, 2018 9:56 pm

Here's my tab for Stranger To Reason



Code:



Artist: Dax Riggs
Song: Stranger To Reason
Tab: William Matthew Breedlove
Tuning: Standard

[Intro]

e|-------------------------------------------------------------------|
B|-------------------------------------------------------------------|
G|-------------------------------------------------------------------|
D|---------9-------------------9------------5------------------5-----|
A|-----7-------10-----------9-----------3-------5-----------5--------|
E|------------------7--------------5----------------3--------------5-|

e|-------------------------------------------------------------------|
B|-------------------------------------------------------------------|
G|-------------------------------------------------------------------|
D|---------9------------------------9--------------5----------5------|
A|-----7------10---------------9---------------3-------5-------------|
E|-----------------7--------------------5---------------------3------|

[Verse]

  Am I the other, half smile
e|-------------------------------------------------------------------|
B|-------------------------------------------------------------------|
G|-------------------------------------------------------------------|x4
D|---------9-------------------9------------5------------------5-----|
A|-----7-------10-----------9-----------3-------5-----------5--------|
E|------------------7--------------5----------------3--------------5-|

[Chorus]
  ....can, yeah
e|-------------------------------------------------------------------|
B|-------------------------------------------------------------------|
G|---7---7-7-7--------------5---5-5-5--------------------------------|x3
D|---7---7-7-7---7--7-7-7---5---5-5-5---5---5-5-5--------------------|
A|---5---5-5-5---7--7-7-7---3---3-3-3---5---5-5-5--------------------|
E|---------------5--5-5-5---------------3---3-3-3--------------------|


    Yeah, the soul of beer can
e|-------------------------------------------------------------------|
B|-------------------------------------------------------------------|
G|-------------------------------------------------------------------|x3
D|---------9-------------------9------------5------------------5-----|
A|-----7-------10-----------9-----------3-------5-----------5--------|
E|------------------7--------------5----------------3--------------5-|


[Verse]

  We were strangers to reason in these seasons of blood
e|-------------------------------------------------------------------|
B|-------------------------------------------------------------------|
G|-------------------------------------------------------------------|x3
D|---------9-------------------9------------5------------------5-----|
A|-----7-------10-----------9-----------3-------5-----------5--------|
E|------------------7--------------5----------------3--------------5-|



[Chorus]

  We were, strangers to reason in these seasons of blood
e|-------------------------------------------------------------------|
B|-------------------------------------------------------------------|
G|---7---7-7-7--------------5---5-5-5--------------------------------|x4
D|---7---7-7-7---7--7-7-7---5---5-5-5---5---5-5-5--------------------|
A|---5---5-5-5---7--7-7-7---3---3-3-3---5---5-5-5--------------------|
E|---------------5--5-5-5---------------3---3-3-3--------------------|


  Yeah, the soul of beer can
e|-------------------------------------------------------------------|
B|-------------------------------------------------------------------|
G|-------------------------------------------------------------------|x2
D|---------9-------------------9------------5------------------5-----|
A|-----7-------10-----------9-----------3-------5-----------5--------|
E|------------------7--------------5----------------3--------------5-|



[Outro]

  The soul of a beer can
e|-------------------------------------------------------------------|
B|-------------------------------------------------------------------|
G|-------------------------------------------------------------------|
D|---------9-------------------9------------5------------------5-----|
A|-----7-------10-----------9-----------3-------5-----------5--------|
E|------------------7--------------5----------------3--------------5-|

e|-------------------------------------------------------------------|
B|-------------------------------------------------------------------|
G|-------------------------------------------------------------------|
D|---------9------------------------9--------------5----------5------|
A|-----7------10---------------9---------------3-------5------5------|
E|-----------------7--------------------5---------------------3------|





Last edited by Guardic on Wed Aug 29, 2018 10:21 pm; edited 6 times in total (Reason for editing : Formatting is causing tab to be off center)
Back to top Go down
Sponsored content




PostSubject: Re: Strangers to reason (soul of a beer can)   

Back to top Go down
 
Strangers to reason (soul of a beer can)
Back to top 
Page 1 of 1
 Similar topics
-
» How Much Beer Can I Drink ?
» The reason we are here....
» Breaking German Codes Real Reason for 1942 Dieppe Raid
» BEAUTIFUL BROOKE, ADORABLE SOUL!
» Reason for Earthquake Season Revealed...

Permissions in this forum:You cannot reply to topics in this forum
A Board with no Name :: Music :: Ghost Movements-
Jump to: