the music of Dax Riggs and more
 
HomeFAQRegisterLog in

Share | 
 

 I Hear Satan

Go down 
AuthorMessage
SanitaryRefuse

avatar


PostSubject: I Hear Satan   Tue Aug 10, 2010 2:32 pm

verse
e---------------------------
b---------------------------
g---5-----5-----5-----------
d------7-----7-----7--5--7--
a---0--0--0--0--0--0--0--0--
e---------------------------

chorus/outro
e---------------
b---------------
g---5-----------
d------7--5--7--
a---0--0--0--0--
e---------------

just the chords/progression here, just figure out the strumming, very

simple.


all guitars are tuned to Eb so basically any chord i have written is relative to fingering, but will actually be half a step lower.


Back to top Go down
 
I Hear Satan
Back to top 
Page 1 of 1
 Similar topics
-
» LaVeyan Satanism
» Doubts on Mrs Fenn's statement?
» What Eddie found at Haut de la Garenne in Jersey

Permissions in this forum:You cannot reply to topics in this forum
A Board with no Name :: Music :: Ghost Movements-
Jump to: