the music of Dax Riggs and more
 
HomeFAQRegisterLog in

Share | 
 

 Daisyhead and the Mooncrickets - Seahorses (Acid Quest)

Go down 
AuthorMessage
Guardic




PostSubject: Daisyhead and the Mooncrickets - Seahorses (Acid Quest)   Wed Sep 05, 2018 8:30 pm

Code:


Artist: Daisyhead and the Mooncrickets (Dax Riggs)
Song: Seahorses (Acid Quest)
Album: Skeletal Circus Derails

Tabbed: William Matthew Breedlove

Tuning: Eb Ab Db Gb Bb eb (Half-Step Down)

[Intro]

eb|---------------------------------------------------------------------------|
Bb|---------------------------------------------------------------------------|
Gb|----5-----------------------------------5----------------------------------|
Db|--5---0------5--------3--------3------5---0------5--------3-------3--------|
Ab|3----------5---0----3---3----3---3--3----------5---0----3---3---3---3------|
Eb|---------3--------1--------1-----------------3--------1-------1------------|

eb|---------------------------------------------------------------------------|
Bb|---------------------------------------------------------------------------|
Gb|----5-----------------------------------5----------------------------------|
Db|--5---0------5--------3--------3------5---0------5----3--------------------|
Ab|3----------5---0----3---3----3---3--3----------5---0--3--------------------|
Eb|---------3--------1--------1-----------------3--------1--------------------|

[Verse]

Let's go to the garden

eb|---------------------------------------------------------------------------|
Bb|---------------------------------------------------------------------------|
Gb|-5--5----------------------------------------------------------------------|
Db|-5--5--5--5---3-3-3-3-3-3--------------------------------------------------|
Ab|-3--3--5--5---3-3-3-3-3-3--------------------------------------------------|
Eb|-------3--3---1-1-1-1-1-1--------------------------------------------------|

and meet my mother there

eb|---------------------------------------------------------------------------|
Bb|---------------------------------------------------------------------------|
Gb|-5--5----------------------------------------------------------------------|
Db|-5--5--5--5---3-3-3-3-3-3--------------------------------------------------|
Ab|-3--3--5--5---3-3-3-3-3-3--------------------------------------------------|
Eb|-------3--3---1-1-1-1-1-1--------------------------------------------------|

Let's go chase the seahorses, running all lost in your cool stare

eb|---------------------------------------------------------------------------|
Bb|---------------------------------------------------------------------------|
Gb|-5--5----------------------------------------------------------------------|
Db|-5--5--5--5---3-3-3-3-3-3--------------------------------------------------|
Ab|-3--3--5--5---3-3-3-3-3-3--------------------------------------------------|
Eb|-------3--3---1-1-1-1-1-1--------------------------------------------------|

[Chorus]

It's alright

eb|---------------------------------------------------------------------------|
Bb|---------------------------------------------------------------------------|
Gb|-5-5-5-5-5-5-5-------------------------------------------------------------|
Db|-5-5-5-5-5-5-5--3-3-3-3-3-3-3----------------------------------------------|
Ab|-3-3-3-3-3-3-3--3-3-3-3-3-3-3----------------------------------------------|
Eb|----------------1-1-1-1-1-1-1----------------------------------------------|

It's alright

eb|---------------------------------------------------------------------------|
Bb|---------------------------------------------------------------------------|
Gb|-5-5-5-5-5-5-5-------------------------------------------------------------|
Db|-5-5-5-5-5-5-5--3-3-3-3-3-3-3----------------------------------------------|
Ab|-3-3-3-3-3-3-3--3-3-3-3-3-3-3----------------------------------------------|
Eb|----------------1-1-1-1-1-1-1----------------------------------------------|

It's alright

eb|---------------------------------------------------------------------------|
Bb|---------------------------------------------------------------------------|
Gb|-5-5-5-5-5-5-5-------------------------------------------------------------|
Db|-5-5-5-5-5-5-5--3-3-3-3-3-3-3----------------------------------------------|
Ab|-3-3-3-3-3-3-3--3-3-3-3-3-3-3----------------------------------------------|
Eb|----------------1-1-1-1-1-1-1----------------------------------------------|

It's alright, yeah

eb|---------------------------------------------------------------------------|
Bb|---------------------------------------------------------------------------|
Gb|-5-5-5-5-5-5-5-------------------------------------------------------------|
Db|-5-5-5-5-5-5-5--5-5-5-5-5-5-5----------------------------------------------|
Ab|-3-3-3-3-3-3-3--5-5-5-5-5-5-5----------------------------------------------|
Eb|----------------3-3-3-3-3-3-3----------------------------------------------|



[Verse]

Let's go to the temple

eb|---------------------------------------------------------------------------|
Bb|---------------------------------------------------------------------------|
Gb|-5--5----------------------------------------------------------------------|
Db|-5--5--5--5---3-3-3-3-3-3--------------------------------------------------|
Ab|-3--3--5--5---3-3-3-3-3-3--------------------------------------------------|
Eb|-------3--3---1-1-1-1-1-1--------------------------------------------------|

Naked in God's sunlight

eb|---------------------------------------------------------------------------|
Bb|---------------------------------------------------------------------------|
Gb|-5--5----------------------------------------------------------------------|
Db|-5--5--5--5---3-3-3-3-3-3--------------------------------------------------|
Ab|-3--3--5--5---3-3-3-3-3-3--------------------------------------------------|
Eb|-------3--3---1-1-1-1-1-1--------------------------------------------------|

Let’s lay where the green grass is growing while everything’s alright

eb|---------------------------------------------------------------------------|
Bb|---------------------------------------------------------------------------|
Gb|-5--5----------------------------------------------------------------------|
Db|-5--5--5--5---3-3-3-3-3-3--------------------------------------------------|
Ab|-3--3--5--5---3-3-3-3-3-3--------------------------------------------------|
Eb|-------3--3---1-1-1-1-1-1--------------------------------------------------|

[Chorus]

It's alright

eb|---------------------------------------------------------------------------|
Bb|---------------------------------------------------------------------------|
Gb|-5-5-5-5-5-5-5-------------------------------------------------------------|
Db|-5-5-5-5-5-5-5--3-3-3-3-3-3-3----------------------------------------------|
Ab|-3-3-3-3-3-3-3--3-3-3-3-3-3-3----------------------------------------------|
Eb|----------------1-1-1-1-1-1-1----------------------------------------------|

alright

eb|---------------------------------------------------------------------------|
Bb|---------------------------------------------------------------------------|
Gb|-5-5-5-5-5-5-5-------------------------------------------------------------|
Db|-5-5-5-5-5-5-5--3-3-3-3-3-3-3----------------------------------------------|
Ab|-3-3-3-3-3-3-3--3-3-3-3-3-3-3----------------------------------------------|
Eb|----------------1-1-1-1-1-1-1----------------------------------------------|

alright

eb|---------------------------------------------------------------------------|
Bb|---------------------------------------------------------------------------|
Gb|-5-5-5-5-5-5-5-------------------------------------------------------------|
Db|-5-5-5-5-5-5-5--3-3-3-3-3-3-3----------------------------------------------|
Ab|-3-3-3-3-3-3-3--3-3-3-3-3-3-3----------------------------------------------|
Eb|----------------1-1-1-1-1-1-1----------------------------------------------|

alright, yeah

eb|---------------------------------------------------------------------------|
Bb|---------------------------------------------------------------------------|
Gb|-5-5-5-5-5-5-5-------------------------------------------------------------|
Db|-5-5-5-5-5-5-5--5-5-5-5-5-5-5----------------------------------------------|
Ab|-3-3-3-3-3-3-3--5-5-5-5-5-5-5----------------------------------------------|
Eb|----------------3-3-3-3-3-3-3----------------------------------------------|

alright, yeah

eb|---------------------------------------------------------------------------|
Bb|---------------------------------------------------------------------------|
Gb|-5-5-5-5-5-5-5-------------------------------------------------------------|
Db|-5-5-5-5-5-5-5--5-5-5-5-5-5-5----------------------------------------------|
Ab|-3-3-3-3-3-3-3--5-5-5-5-5-5-5----------------------------------------------|
Eb|----------------3-3-3-3-3-3-3----------------------------------------------|

alright

eb|---------------------------------------------------------------------------|
Bb|---------------------------------------------------------------------------|
Gb|-5-5-5-5-5-5-5-------------------------------------------------------------|
Db|-5-5-5-5-5-5-5--5-5-5-5-5-5-5----------------------------------------------|
Ab|-3-3-3-3-3-3-3--5-5-5-5-5-5-5----------------------------------------------|
Eb|----------------3-3-3-3-3-3-3----------------------------------------------|

alright

eb|---------------------------------------------------------------------------|
Bb|---------------------------------------------------------------------------|
Gb|-5-5-5-5-5-5-5-------------------------------------------------------------|
Db|-5-5-5-5-5-5-5--5-5-5-5-5-5-5----------------------------------------------|
Ab|-3-3-3-3-3-3-3--5-5-5-5-5-5-5----------------------------------------------|
Eb|----------------3-3-3-3-3-3-3----------------------------------------------|

alright

eb|---------------------------------------------------------------------------|
Bb|---------------------------------------------------------------------------|
Gb|-5-5-5-5-5-5-5-------------------------------------------------------------|
Db|-5-5-5-5-5-5-5--5-5-5-5-5-5-5----------------------------------------------|
Ab|-3-3-3-3-3-3-3--5-5-5-5-5-5-5----------------------------------------------|
Eb|----------------3-3-3-3-3-3-3----------------------------------------------|

alright

eb|---------------------------------------------------------------------------|
Bb|---------------------------------------------------------------------------|
Gb|-5-5-5-5-5-5-5-------------------------------------------------------------|
Db|-5-5-5-5-5-5-5--5-5-5-5-5-5-5----------------------------------------------|
Ab|-3-3-3-3-3-3-3--5-5-5-5-5-5-5----------------------------------------------|
Eb|----------------3-3-3-3-3-3-3----------------------------------------------|


Back to top Go down
 
Daisyhead and the Mooncrickets - Seahorses (Acid Quest)
Back to top 
Page 1 of 1
 Similar topics
-
» India acid attack victim wins Who Wants To Be a Millionaire
» Creature Quest – The New Adventure from JVC (feat some old NWC members)
» Katie Piper
» Lee So Cool's collection
» Preparing for the Crimson Dofus quest.

Permissions in this forum:You cannot reply to topics in this forum
A Board with no Name :: Music :: Ghost Movements-
Jump to: