the music of Dax Riggs and more
 
HomeFAQRegisterLog in

Share | 
 

 Radiation Blues

Go down 
AuthorMessage
SanitaryRefuse

avatar


PostSubject: Radiation Blues   Thu Apr 28, 2011 10:34 am


B---------2^------------2^---------2^---------------
G---------2^------------2^---------2^---------------
D-----2------4~~----2----------2------4~~--2^-------
A---4---4---------4---4------4---4------------4-----
E-----------------------------------------------2---


B---------2^------------2^---------2^-----------------------------
G---------2^------------2^---------2^-----------------------------
D-----2------4~~----2----------2------4~~--2^---------------------
A---4---4---------4---4------4---4------------4-------------------
E-----------------------------------------------2--0~~h(2)-2~~~---


x4
G----------------
D---4--7--9--4---
A---4--7--9--4---
E---2--5--7--2---


x1
B--------------------
G---7--4--2-----11---
D---7--4--2--4--11---
A---5--2--0--4--9----
E------------2-------

x2
G----------------
D---4--7--9--4---
A---4--7--9--4---
E---2--5--7--2---

x2
B--------------------
G---7--4--2-----11---
D---7--4--2--4--11---
A---5--2--0--4--9----
E------------2-------


verse x 4

chorus x2


I believe this tab was done by me, so i'd like to note that this was tabbed in standard tuning, but since Dax tunes a half step down, should you decide to do the same, just move everything up one fret of course.

Back to top Go down
 
Radiation Blues
Back to top 
Page 1 of 1
 Similar topics
-
» BLUE FLAG 'PRIDE OF LONDON'
» WWII radiation counter
» CANADIAN 1943 HOSPITAL BLUES TROUSERS ?

Permissions in this forum:You cannot reply to topics in this forum
A Board with no Name :: Music :: Ghost Movements-
Jump to: